Godlike Productions - Conspiracy Forum
Users Online Now: 2,405 (Who's On?)Visitors Today: 1,018,439
Pageviews Today: 1,420,498Threads Today: 402Posts Today: 7,942
01:10 PM


Rate this Thread

Absolute BS Crap Reasonable Nice Amazing
 

THERE ARE INFINITE NUMBERS BETWEEN INFINITE NUMBERS BETWEEN INFINITE NUMBERS

 
Anonymous Coward
User ID: 30657452
United Kingdom
12/23/2012 03:11 AM
Report Abusive Post
Report Copyright Violation
THERE ARE INFINITE NUMBERS BETWEEN INFINITE NUMBERS BETWEEN INFINITE NUMBERS
ahlolatulolatulolatu LIKE I SAID TRULLY AWSOMEMLY AWE-INSPIRING
Mr. HypGnostic

User ID: 30301043
United States
12/23/2012 03:15 AM
Report Abusive Post
Report Copyright Violation
Re: THERE ARE INFINITE NUMBERS BETWEEN INFINITE NUMBERS BETWEEN INFINITE NUMBERS
Never thought about that. Wow.
In Lak`ech.
Anonymous Coward
User ID: 28760789
New Zealand
12/23/2012 04:11 AM
Report Abusive Post
Report Copyright Violation
Re: THERE ARE INFINITE NUMBERS BETWEEN INFINITE NUMBERS BETWEEN INFINITE NUMBERS
bump
Anonymous Coward
User ID: 30690274
Japan
12/23/2012 04:18 AM
Report Abusive Post
Report Copyright Violation
Re: THERE ARE INFINITE NUMBERS BETWEEN INFINITE NUMBERS BETWEEN INFINITE NUMBERS
Think of this:

1) The numbers in this progression:
1, 2, 3, 4, 5...to infinity.

2) The numbers in this progression:
1, 10, 20, 30, 40...to infinity.

Obviously the set of all numbers in group 1) is greater than the set of all numbers in group 2). Yet both sets are infinite! One type of infinity is bigger than the other type!

gaah
Anonymous Coward
User ID: 30620596
12/23/2012 04:20 AM
Report Abusive Post
Report Copyright Violation
Re: THERE ARE INFINITE NUMBERS BETWEEN INFINITE NUMBERS BETWEEN INFINITE NUMBERS
Think of this:

1) The numbers in this progression:
1, 2, 3, 4, 5...to infinity.

2) The numbers in this progression:
1, 10, 20, 30, 40...to infinity.

Obviously the set of all numbers in group 1) is greater than the set of all numbers in group 2). Yet both sets are infinite! One type of infinity is bigger than the other type!

gaah
 Quoting: Anonymous Coward 30690274


it's not bigger. they are both infinite.

there is absolutely no proof whatsoever that there are more 10,20,30 than 1,2,3
Anonymous Coward
User ID: 16229672
Australia
12/23/2012 04:21 AM
Report Abusive Post
Report Copyright Violation
Re: THERE ARE INFINITE NUMBERS BETWEEN INFINITE NUMBERS BETWEEN INFINITE NUMBERS
Think of this:

1) The numbers in this progression:
1, 2, 3, 4, 5...to infinity.

2) The numbers in this progression:
1, 10, 20, 30, 40...to infinity.

Obviously the set of all numbers in group 1) is greater than the set of all numbers in group 2). Yet both sets are infinite! One type of infinity is bigger than the other type!

gaah
 Quoting: Anonymous Coward 30690274


Does the words "For infinity of infinity" make logical sense?
Anonymous Coward
User ID: 12654195
United States
12/23/2012 04:23 AM
Report Abusive Post
Report Copyright Violation
Re: THERE ARE INFINITE NUMBERS BETWEEN INFINITE NUMBERS BETWEEN INFINITE NUMBERS
If Pi is infinite, then eventually you get a string of numbers like 3.14..... 123456789101112131415161718.


maybe, it could go on infinitely at some point, it wouldn't really be a pattern though.
Anonymous Coward
User ID: 30690274
Japan
12/23/2012 04:25 AM
Report Abusive Post
Report Copyright Violation
Re: THERE ARE INFINITE NUMBERS BETWEEN INFINITE NUMBERS BETWEEN INFINITE NUMBERS
Think of this:

1) The numbers in this progression:
1, 2, 3, 4, 5...to infinity.

2) The numbers in this progression:
1, 10, 20, 30, 40...to infinity.

Obviously the set of all numbers in group 1) is greater than the set of all numbers in group 2). Yet both sets are infinite! One type of infinity is bigger than the other type!

gaah
 Quoting: Anonymous Coward 30690274


it's not bigger. they are both infinite.

there is absolutely no proof whatsoever that there are more 10,20,30 than 1,2,3
 Quoting: Anonymous Coward 30620596


Actually it is recognized by mathematics that there are more numbers in 1) than 2), alothough both are infinite. This is "Cantorian set theory". Cantor proved that there are infinite sets bigger than other infinite sets. In formal mathematics they are denoted "aleph-1" "aleph-2" and so forth.
CC
User ID: 15797201
Australia
12/23/2012 04:25 AM
Report Abusive Post
Report Copyright Violation
Re: THERE ARE INFINITE NUMBERS BETWEEN INFINITE NUMBERS BETWEEN INFINITE NUMBERS
THERE ARE INFINITE NUMBERS BETWEEN INFINITE NUMBERS BETWEEN INFINITE NUMBERS
 Quoting: Anonymous Coward 30657452


yeah, the square root of minus one is one of them.
Anonymous Coward
User ID: 1408355
Australia
12/23/2012 04:27 AM
Report Abusive Post
Report Copyright Violation
Re: THERE ARE INFINITE NUMBERS BETWEEN INFINITE NUMBERS BETWEEN INFINITE NUMBERS
ahlolatulolatulolatu LIKE I SAID TRULLY AWSOMEMLY AWE-INSPIRING
 Quoting: Anonymous Coward 30657452


Yes! You could never stop cutting up a piece of pie if you had enough vision and a fine enough knife. There is always a half of a half, or a quarter of a quarter etc.
Anonymous Coward
User ID: 30690274
Japan
12/23/2012 04:27 AM
Report Abusive Post
Report Copyright Violation
Re: THERE ARE INFINITE NUMBERS BETWEEN INFINITE NUMBERS BETWEEN INFINITE NUMBERS
Here is some information on "different sized infinities":

[link to en.wikipedia.org]
Anonymous Coward
User ID: 17744719
Canada
12/23/2012 04:29 AM
Report Abusive Post
Report Copyright Violation
Re: THERE ARE INFINITE NUMBERS BETWEEN INFINITE NUMBERS BETWEEN INFINITE NUMBERS
Think of this:

1) The numbers in this progression:
1, 2, 3, 4, 5...to infinity.

2) The numbers in this progression:
1, 10, 20, 30, 40...to infinity.

Obviously the set of all numbers in group 1) is greater than the set of all numbers in group 2). Yet both sets are infinite! One type of infinity is bigger than the other type!

gaah
 Quoting: Anonymous Coward 30690274



Dude, I am warning you! You are on a dangerous path to madness. This is the stuff drove Georg Cantor straight to insane asylum.
Anonymous Coward
User ID: 30695339
United Kingdom
12/23/2012 04:34 AM
Report Abusive Post
Report Copyright Violation
Re: THERE ARE INFINITE NUMBERS BETWEEN INFINITE NUMBERS BETWEEN INFINITE NUMBERS
yodalolatulolatulolatu YES ALSO
1,2,3,4,5,6,7,8,9,10 AND THE INFINITIUMUIASES THEMSELVES ARE FOREVER GROWING PER NANO SECOND,,,,,,,,,,,,,,,,,,,
Anonymous Coward
User ID: 30620596
12/23/2012 04:37 AM
Report Abusive Post
Report Copyright Violation
Re: THERE ARE INFINITE NUMBERS BETWEEN INFINITE NUMBERS BETWEEN INFINITE NUMBERS
Think of this:

1) The numbers in this progression:
1, 2, 3, 4, 5...to infinity.

2) The numbers in this progression:
1, 10, 20, 30, 40...to infinity.

Obviously the set of all numbers in group 1) is greater than the set of all numbers in group 2). Yet both sets are infinite! One type of infinity is bigger than the other type!

gaah
 Quoting: Anonymous Coward 30690274


it's not bigger. they are both infinite.

there is absolutely no proof whatsoever that there are more 10,20,30 than 1,2,3
 Quoting: Anonymous Coward 30620596


Actually it is recognized by mathematics that there are more numbers in 1) than 2), alothough both are infinite. This is "Cantorian set theory". Cantor proved that there are infinite sets bigger than other infinite sets. In formal mathematics they are denoted "aleph-1" "aleph-2" and so forth.
 Quoting: Anonymous Coward 30690274


pure speculation on his side.

as i have said - absolutely no proof whatsoever other than some presumptions.
Adaluncatif

User ID: 23757844
United States
12/23/2012 05:06 AM
Report Abusive Post
Report Copyright Violation
Re: THERE ARE INFINITE NUMBERS BETWEEN INFINITE NUMBERS BETWEEN INFINITE NUMBERS
If Pi is infinite, then eventually you get a string of numbers like 3.14..... 123456789101112131415161718.


maybe, it could go on infinitely at some point, it wouldn't really be a pattern though.
 Quoting: Anonymous Coward 12654195


How do you know pi is infinite? Is there a proof? Couldn't it end at the quadrillionth decimal place?
Adaluncatif
pi
User ID: 20063747
Canada
12/23/2012 05:08 AM
Report Abusive Post
Report Copyright Violation
Re: THERE ARE INFINITE NUMBERS BETWEEN INFINITE NUMBERS BETWEEN INFINITE NUMBERS
If Pi is infinite, then eventually you get a string of numbers like 3.14..... 123456789101112131415161718.


maybe, it could go on infinitely at some point, it wouldn't really be a pattern though.
 Quoting: Anonymous Coward 12654195


How do you know pi is infinite? Is there a proof? Couldn't it end at the quadrillionth decimal place?
 Quoting: Adaluncatif


Oh probably.

The question is, will you ever find out? ;)
Adaluncatif

User ID: 23757844
United States
12/23/2012 05:22 AM
Report Abusive Post
Report Copyright Violation
Re: THERE ARE INFINITE NUMBERS BETWEEN INFINITE NUMBERS BETWEEN INFINITE NUMBERS
ahlolatulolatulolatu LIKE I SAID TRULLY AWSOMEMLY AWE-INSPIRING
 Quoting: Anonymous Coward 30657452


Yes! You could never stop cutting up a piece of pie if you had enough vision and a fine enough knife. There is always a half of a half, or a quarter of a quarter etc.
 Quoting: Anonymous Coward 1408355


Motion cannot truly exist. If you could zoom into matter way smaller than the subatomic scale you would eventually reach a point where matter could not be further subdivided, unless every particle is made of smaller particles forever. If the universe is finite there is some small scale where space is discrete, i.e. particles can only fit into distinct locations kinda like the x's and o's in tic tac toe. This means when a particle moves it disappears at one location and reappears at another. This implies memory. Like a computer.

yoda
Adaluncatif
Anonymous Coward
User ID: 21155409
United States
12/23/2012 05:30 AM
Report Abusive Post
Report Copyright Violation
Re: THERE ARE INFINITE NUMBERS BETWEEN INFINITE NUMBERS BETWEEN INFINITE NUMBERS
ahlolatulolatulolatu LIKE I SAID TRULLY AWSOMEMLY AWE-INSPIRING
 Quoting: Anonymous Coward 30657452


Yes! You could never stop cutting up a piece of pie if you had enough vision and a fine enough knife. There is always a half of a half, or a quarter of a quarter etc.
 Quoting: Anonymous Coward 1408355


Motion cannot truly exist. If you could zoom into matter way smaller than the subatomic scale you would eventually reach a point where matter could not be further subdivided, unless every particle is made of smaller particles forever. If the universe is finite there is some small scale where space is discrete, i.e. particles can only fit into distinct locations kinda like the x's and o's in tic tac toe. This means when a particle moves it disappears at one location and reappears at another. This implies memory. Like a computer.

yoda
 Quoting: Adaluncatif


Like 1's and 0's?
aahh
User ID: 30697488
Chile
12/23/2012 05:42 AM
Report Abusive Post
Report Copyright Violation
Re: THERE ARE INFINITE NUMBERS BETWEEN INFINITE NUMBERS BETWEEN INFINITE NUMBERS
finally an interesting thread =Dbroccoli
ana
Anonymous Coward
User ID: 30695339
United Kingdom
12/23/2012 07:34 AM
Report Abusive Post
Report Copyright Violation
Re: THERE ARE INFINITE NUMBERS BETWEEN INFINITE NUMBERS BETWEEN INFINITE NUMBERS
yodaahSmileyGlasahahlolatulolatulolatu
BBEEYYOOIINNDDIIEE CEONCEPTUALIZZATION BEYOND PREMATURE THINKING SOMETHING SO LARGE IT DEFIES SIZE DEFIES GOD ITSELF>>>>>>>>>>>>>>>>>>>>>>>>>>>>>>>>>>>>>>>>>>>>>>>>>>>>>>>​>>>>>>>>>>>>>>>>>>>>>>>>>>>>>>>>>>>>>>>>>>>>>>>>>>>>>>>>>>>
Anonymous Coward
User ID: 30695339
United Kingdom
12/23/2012 07:38 AM
Report Abusive Post
Report Copyright Violation
Re: THERE ARE INFINITE NUMBERS BETWEEN INFINITE NUMBERS BETWEEN INFINITE NUMBERS
yodayodayodayodaBEYOIND SEIZE BEYOIND THAT BEYOIND THAT TRULLY (AWSOMELIAIZY- AWE-INSPIRINGLUIAZIATION)
Anonymous Coward
User ID: 30250492
Canada
12/23/2012 07:41 AM
Report Abusive Post
Report Copyright Violation
Re: THERE ARE INFINITE NUMBERS BETWEEN INFINITE NUMBERS BETWEEN INFINITE NUMBERS
ahlolatulolatulolatu LIKE I SAID TRULLY AWSOMEMLY AWE-INSPIRING
 Quoting: Anonymous Coward 30657452


Infinity makes the impossible possible.

We would normally expect 1 <> 0
However

1+&#8734; = &#8734;
0+&#8734; = &#8734;
&#8756; 1+&#8734; = 0+&#8734; => &#8734; cancels
&#8756; 1=0

Dats Mathmaticks!
Anonymous Coward
User ID: 30250492
Canada
12/23/2012 07:42 AM
Report Abusive Post
Report Copyright Violation
Re: THERE ARE INFINITE NUMBERS BETWEEN INFINITE NUMBERS BETWEEN INFINITE NUMBERS
ahlolatulolatulolatu LIKE I SAID TRULLY AWSOMEMLY AWE-INSPIRING
 Quoting: Anonymous Coward 30657452


Infinity makes the impossible possible.

We would normally expect 1 <> 0
However

1+&#8734; = &#8734;
0+&#8734; = &#8734;
&#8756; 1+&#8734; = 0+&#8734; => &#8734; cancels
&#8756; 1=0

Dats Mathmaticks!
 Quoting: Anonymous Coward 30250492


Fucking GLP

1+infinity = infinity
0+infinity = infinity
1+infinity = 0+infinity
infinity cancels
1=0
Anonymous Coward
User ID: 9608936
India
12/23/2012 08:04 AM
Report Abusive Post
Report Copyright Violation
Re: THERE ARE INFINITE NUMBERS BETWEEN INFINITE NUMBERS BETWEEN INFINITE NUMBERS
infintiy could exist even in finiteness
.
.
.
.
there are INFINITE real numbers in between 1 & 2

1.1
1.11
1.2
1.3
1.4
1.9999999999
1.99999999999999999
1.99999999999999999999
1.9
1.9999999999999999999999999999
1.99999999999999999999999999999999999999999999999999999999999​999999999999999999999999999999999999
1.99999999999999999999999999999999999999999999999999999999999​9999999999999999999999999999999999999999999999999999999999999​9999999999999999999999999999999999999999999
Anonymous Coward
User ID: 30695339
United Kingdom
12/23/2012 09:05 AM
Report Abusive Post
Report Copyright Violation
Re: THERE ARE INFINITE NUMBERS BETWEEN INFINITE NUMBERS BETWEEN INFINITE NUMBERS
yodaahahahlolatulolatulolatu
1----------------1
1----------------1
2----------------2
3----------------3
5----------------5
8----------------8
13---------------4
21---------------3
34---------------7
55---------------1
89---------------8
144--------------9
233--------------8
377--------------8
610--------------7
987--------------6
1597-------------4
2584-------------1
4181-------------5
6765-------------6
10946------------2
17711------------8
28657------------1
46368------------9

75025------------1
121393-----------1
196418-----------2
317811-----------3
514229-----------5
832040-----------8
1346269----------4
2178309----------3
3524578----------7
5702887----------1
9227465----------8
14930352---------9
24157817---------8
39088169---------8
63245986---------7
102334155--------6
165580141--------4
267914296--------1
433494437--------5
701408733--------6
1134903170-------2
1836311903-------8
2971215073-------1
4807526976-------9

7778742049-------1
12586269025------1
20365011074------2
32951280099------3
53316291173------5
86267571272------8
139583862445-----4
225851433717-----3
365435296162-----7
591286729879-----1
956722026041-----8
1548008755920----9
2504730781961----8
4052739537881----8
6557470319842----7
10610209857723---6
17167680177565---4
27777890035288---1
44945570212853---5
72723460248141---6
117669030460994--2
190392490709135--8
308061521170129--1
498454011879264--90----------------0

1----------------1
1----------------1
2----------------2
3----------------3
5----------------5
8----------------8
13---------------4
21---------------3
34---------------7
55---------------1
89---------------8
144--------------9
233--------------8
377--------------8
610--------------7
987--------------6
1597-------------4
2584-------------1
4181-------------5
6765-------------6
10946------------2
17711------------8
28657------------1
46368------------9

75025------------1
121393-----------1
196418-----------2
317811-----------3
514229-----------5
832040-----------8
1346269----------4
2178309----------3
3524578----------7
5702887----------1
9227465----------8
14930352---------9
24157817---------8
39088169---------8
63245986---------7
102334155--------6
165580141--------4
267914296--------1
433494437--------5
701408733--------6
1134903170-------2
1836311903-------8
2971215073-------1
4807526976-------9

7778742049-------1
12586269025------1
20365011074------2
32951280099------3
53316291173------5
86267571272------8
139583862445-----4
225851433717-----3
365435296162-----7
591286729879-----1
956722026041-----8
1548008755920----9
2504730781961----8
4052739537881----8
6557470319842----7
10610209857723---6
17167680177565---4
27777890035288---1
44945570212853---5
72723460248141---6
117669030460994--2
190392490709135--8
308061521170129--1
498454011879264--90----------------0

1----------------1
1----------------1
2----------------2
3----------------3
5----------------5
8----------------8
13---------------4
21---------------3
34---------------7
55---------------1
89---------------8
144--------------9
233--------------8
377--------------8
610--------------7
987--------------6
1597-------------4
2584-------------1
4181-------------5
6765-------------6
10946------------2
17711------------8
28657------------1
46368------------9

75025------------1
121393-----------1
196418-----------2
317811-----------3
514229-----------5
832040-----------8
1346269----------4
2178309----------3
3524578----------7
5702887----------1
9227465----------8
14930352---------9
24157817---------8
39088169---------8
63245986---------7
102334155--------6
165580141--------4
267914296--------1
433494437--------5
701408733--------6
1134903170-------2
1836311903-------8
2971215073-------1
4807526976-------9

7778742049-------1
12586269025------1
20365011074------2
32951280099------3
53316291173------5
86267571272------8
139583862445-----4
225851433717-----3
365435296162-----7
591286729879-----1
956722026041-----8
1548008755920----9
2504730781961----8
4052739537881----8
6557470319842----7
10610209857723---6
17167680177565---4
27777890035288---1
44945570212853---5
72723460248141---6
117669030460994--2
190392490709135--8
308061521170129--1
498454011879264--90----------------0

1----------------1
1----------------1
2----------------2
3----------------3
5----------------5
8----------------8
13---------------4
21---------------3
34---------------7
55---------------1
89---------------8
144--------------9
233--------------8
377--------------8
610--------------7
987--------------6
1597-------------4
2584-------------1
4181-------------5
6765-------------6
10946------------2
17711------------8
28657------------1
46368------------9

75025------------1
121393-----------1
196418-----------2
317811-----------3
514229-----------5
832040-----------8
1346269----------4
2178309----------3
3524578----------7
5702887----------1
9227465----------8
14930352---------9
24157817---------8
39088169---------8
63245986---------7
102334155--------6
165580141--------4
267914296--------1
433494437--------5
701408733--------6
1134903170-------2
1836311903-------8
2971215073-------1
4807526976-------9

7778742049-------1
12586269025------1
20365011074------2
32951280099------3
53316291173------5
86267571272------8
139583862445-----4
225851433717-----3
365435296162-----7
591286729879-----1
956722026041-----8
1548008755920----9
2504730781961----8
4052739537881----8
6557470319842----7
10610209857723---6
17167680177565---4
27777890035288---1
44945570212853---5
72723460248141---6
117669030460994--2
190392490709135--8
308061521170129--1
498454011879264--90----------------0

1----------------1
1----------------1
2----------------2
3----------------3
5----------------5
8----------------8
13---------------4
21---------------3
34---------------7
55---------------1
89---------------8
144--------------9
233--------------8
377--------------8
610--------------7
987--------------6
1597-------------4
2584-------------1
4181-------------5
6765-------------6
10946------------2
17711------------8
28657------------1
46368------------9

75025------------1
121393-----------1
196418-----------2
317811-----------3
514229-----------5
832040-----------8
1346269----------4
2178309----------3
3524578----------7
5702887----------1
9227465----------8
14930352---------9
24157817---------8
39088169---------8
63245986---------7
102334155--------6
165580141--------4
267914296--------1
433494437--------5
701408733--------6
1134903170-------2
1836311903-------8
2971215073-------1
4807526976-------9

7778742049-------1
12586269025------1
20365011074------2
32951280099------3
53316291173------5
86267571272------8
139583862445-----4
225851433717-----3
365435296162-----7
591286729879-----1
956722026041-----8
1548008755920----9
2504730781961----8
4052739537881----8
6557470319842----7
10610209857723---6
17167680177565---4
27777890035288---1
44945570212853---5
72723460248141---6
117669030460994--2
190392490709135--8
308061521170129--1
498454011879264--90----------------0

1----------------1
1----------------1
2----------------2
3----------------3
5----------------5
8----------------8
13---------------4
21---------------3
34---------------7
55---------------1
89---------------8
144--------------9
233--------------8
377--------------8
610--------------7
987--------------6
1597-------------4
2584-------------1
4181-------------5
6765-------------6
10946------------2
17711------------8
28657------------1
46368------------9

75025------------1
121393-----------1
196418-----------2
317811-----------3
514229-----------5
832040-----------8
1346269----------4
2178309----------3
3524578----------7
5702887----------1
9227465----------8
14930352---------9
24157817---------8
39088169---------8
63245986---------7
102334155--------6
165580141--------4
267914296--------1
433494437--------5
701408733--------6
1134903170-------2
1836311903-------8
2971215073-------1
4807526976-------9

7778742049-------1
12586269025------1
20365011074------2
32951280099------3
53316291173------5
86267571272------8
139583862445-----4
225851433717-----3
365435296162-----7
591286729879-----1
956722026041-----8
1548008755920----9
2504730781961----8
4052739537881----8
6557470319842----7
10610209857723---6
17167680177565---4
27777890035288---1
44945570212853---5
72723460248141---6
117669030460994--2
190392490709135--8
308061521170129--1
498454011879264--90----------------0

1----------------1
1----------------1
2----------------2
3----------------3
5----------------5
8----------------8
13---------------4
21---------------3
34---------------7
55---------------1
89---------------8
144--------------9
233--------------8
377--------------8
610--------------7
987--------------6
1597-------------4
2584-------------1
4181-------------5
6765-------------6
10946------------2
17711------------8
28657------------1
46368------------9

75025------------1
121393-----------1
196418-----------2
317811-----------3
514229-----------5
832040-----------8
1346269----------4
2178309----------3
3524578----------7
5702887----------1
9227465----------8
14930352---------9
24157817---------8
39088169---------8
63245986---------7
102334155--------6
165580141--------4
267914296--------1
433494437--------5
701408733--------6
1134903170-------2
1836311903-------8
2971215073-------1
4807526976-------9

7778742049-------1
12586269025------1
20365011074------2
32951280099------3
53316291173------5
86267571272------8
139583862445-----4
225851433717-----3
365435296162-----7
591286729879-----1
956722026041-----8
1548008755920----9
2504730781961----8
4052739537881----8
6557470319842----7
10610209857723---6
17167680177565---4
27777890035288---1
44945570212853---5
72723460248141---6
117669030460994--2
190392490709135--8
308061521170129--1
498454011879264--9
1----------------1
1----------------1
2----------------2
3----------------3
5----------------5
8----------------8
13---------------4
21---------------3
34---------------7
55---------------1
89---------------8
144--------------9
233--------------8
377--------------8
610--------------7
987--------------6
1597-------------4
2584-------------1
4181-------------5
6765-------------6
10946------------2
17711------------8
28657------------1
46368------------9

75025------------1
121393-----------1
196418-----------2
317811-----------3
514229-----------5
832040-----------8
1346269----------4
2178309----------3
3524578----------7
5702887----------1
9227465----------8
14930352---------9
24157817---------8
39088169---------8
63245986---------7
102334155--------6
165580141--------4
267914296--------1
433494437--------5
701408733--------6
1134903170-------2
1836311903-------8
2971215073-------1
4807526976-------9

7778742049-------1
12586269025------1
20365011074------2
32951280099------3
53316291173------5
86267571272------8
139583862445-----4
225851433717-----3
365435296162-----7
591286729879-----1
956722026041-----8
1548008755920----9
2504730781961----8
4052739537881----8
6557470319842----7
10610209857723---6
17167680177565---4
27777890035288---1
44945570212853---5
72723460248141---6
117669030460994--2
190392490709135--8
308061521170129--1
498454011879264--90----------------0

1----------------1
1----------------1
2----------------2
3----------------3
5----------------5
8----------------8
13---------------4
21---------------3
34---------------7
55---------------1
89---------------8
144--------------9
233--------------8
377--------------8
610--------------7
987--------------6
1597-------------4
2584-------------1
4181-------------5
6765-------------6
10946------------2
17711------------8
28657------------1
46368------------9

75025------------1
121393-----------1
196418-----------2
317811-----------3
514229-----------5
832040-----------8
1346269----------4
2178309----------3
3524578----------7
5702887----------1
9227465----------8
14930352---------9
24157817---------8
39088169---------8
63245986---------7
102334155--------6
165580141--------4
267914296--------1
433494437--------5
701408733--------6
1134903170-------2
1836311903-------8
2971215073-------1
4807526976-------9

7778742049-------1
12586269025------1
20365011074------2
32951280099------3
53316291173------5
86267571272------8
139583862445-----4
225851433717-----3
365435296162-----7
591286729879-----1
956722026041-----8
1548008755920----9
2504730781961----8
4052739537881----8
6557470319842----7
10610209857723---6
17167680177565---4
27777890035288---1
44945570212853---5
72723460248141---6
117669030460994--2
190392490709135--8
308061521170129--1
498454011879264--90----------------0

1----------------1
1----------------1
2----------------2
3----------------3
5----------------5
8----------------8
13---------------4
21---------------3
34---------------7
55---------------1
89---------------8
144--------------9
233--------------8
377--------------8
610--------------7
987--------------6
1597-------------4
2584-------------1
4181-------------5
6765-------------6
10946------------2
17711------------8
28657------------1
46368------------9

75025------------1
121393-----------1
196418-----------2
317811-----------3
514229-----------5
832040-----------8
1346269----------4
2178309----------3
3524578----------7
5702887----------1
9227465----------8
14930352---------9
24157817---------8
39088169---------8
63245986---------7
102334155--------6
165580141--------4
267914296--------1
433494437--------5
701408733--------6
1134903170-------2
1836311903-------8
2971215073-------1
4807526976-------9

7778742049-------1
12586269025------1
20365011074------2
32951280099------3
53316291173------5
86267571272------8
139583862445-----4
225851433717-----3
365435296162-----7
591286729879-----1
956722026041-----8
1548008755920----9
2504730781961----8
4052739537881----8
6557470319842----7
10610209857723---6
17167680177565---4
27777890035288---1
44945570212853---5
72723460248141---6
117669030460994--2
190392490709135--8
308061521170129--1
498454011879264--90----------------0

1----------------1
1----------------1
2----------------2
3----------------3
5----------------5
8----------------8
13---------------4
21---------------3
34---------------7
55---------------1
89---------------8
144--------------9
233--------------8
377--------------8
610--------------7
987--------------6
1597-------------4
2584-------------1
4181-------------5
6765-------------6
10946------------2
17711------------8
28657------------1
46368------------9

75025------------1
121393-----------1
196418-----------2
317811-----------3
514229-----------5
832040-----------8
1346269----------4
2178309----------3
3524578----------7
5702887----------1
9227465----------8
14930352---------9
24157817---------8
39088169---------8
63245986---------7
102334155--------6
165580141--------4
267914296--------1
433494437--------5
701408733--------6
1134903170-------2
1836311903-------8
2971215073-------1
4807526976-------9

7778742049-------1
12586269025------1
20365011074------2
32951280099------3
53316291173------5
86267571272------8
139583862445-----4
225851433717-----3
365435296162-----7
591286729879-----1
956722026041-----8
1548008755920----9
2504730781961----8
4052739537881----8
6557470319842----7
10610209857723---6
17167680177565---4
27777890035288---1
44945570212853---5
72723460248141---6
117669030460994--2
190392490709135--8
308061521170129--1
498454011879264--90----------------0

1----------------1
1----------------1
2----------------2
3----------------3
5----------------5
8----------------8
13---------------4
21---------------3
34---------------7
55---------------1
89---------------8
144--------------9
233--------------8
377--------------8
610--------------7
987--------------6
1597-------------4
2584-------------1
4181-------------5
6765-------------6
10946------------2
17711------------8
28657------------1
46368------------9

75025------------1
121393-----------1
196418-----------2
317811-----------3
514229-----------5
832040-----------8
1346269----------4
2178309----------3
3524578----------7
5702887----------1
9227465----------8
14930352---------9
24157817---------8
39088169---------8
63245986---------7
102334155--------6
165580141--------4
267914296--------1
433494437--------5
701408733--------6
1134903170-------2
1836311903-------8
2971215073-------1
4807526976-------9

7778742049-------1
12586269025------1
20365011074------2
32951280099------3
53316291173------5
86267571272------8
139583862445-----4
225851433717-----3
365435296162-----7
591286729879-----1
956722026041-----8
1548008755920----9
2504730781961----8
4052739537881----8
6557470319842----7
10610209857723---6
17167680177565---4
27777890035288---1
44945570212853---5
72723460248141---6
117669030460994--2
190392490709135--8
308061521170129--1
498454011879264--90----------------0

1----------------1
1----------------1
2----------------2
3----------------3
5----------------5
8----------------8
13---------------4
21---------------3
34---------------7
55---------------1
89---------------8
144--------------9
233--------------8
377--------------8
610--------------7
987--------------6
1597-------------4
2584-------------1
4181-------------5
6765-------------6
10946------------2
17711------------8
28657------------1
46368------------9

75025------------1
121393-----------1
196418-----------2
317811-----------3
514229-----------5
832040-----------8
1346269----------4
2178309----------3
3524578----------7
5702887----------1
9227465----------8
14930352---------9
24157817---------8
39088169---------8
63245986---------7
102334155--------6
165580141--------4
267914296--------1
433494437--------5
701408733--------6
1134903170-------2
1836311903-------8
2971215073-------1
4807526976-------9

7778742049-------1
12586269025------1
20365011074------2
32951280099------3
53316291173------5
86267571272------8
139583862445-----4
225851433717-----3
365435296162-----7
591286729879-----1
956722026041-----8
1548008755920----9
2504730781961----8
4052739537881----8
6557470319842----7
10610209857723---6
17167680177565---4
27777890035288---1
44945570212853---5
72723460248141---6
117669030460994--2
190392490709135--8
308061521170129--1
498454011879264--90----------------0

1----------------1
1----------------1
2----------------2
3----------------3
5----------------5
8----------------8
13---------------4
21---------------3
34---------------7
55---------------1
89---------------8
144--------------9
233--------------8
377--------------8
610--------------7
987--------------6
1597-------------4
2584-------------1
4181-------------5
6765-------------6
10946------------2
17711------------8
28657------------1
46368------------9

75025------------1
121393-----------1
196418-----------2
317811-----------3
514229-----------5
832040-----------8
1346269----------4
2178309----------3
3524578----------7
5702887----------1
9227465----------8
14930352---------9
24157817---------8
39088169---------8
63245986---------7
102334155--------6
165580141--------4
267914296--------1
433494437--------5
701408733--------6
1134903170-------2
1836311903-------8
2971215073-------1
4807526976-------9

7778742049-------1
12586269025------1
20365011074------2
32951280099------3
53316291173------5
86267571272------8
139583862445-----4
225851433717-----3
365435296162-----7
591286729879-----1
956722026041-----8
1548008755920----9
2504730781961----8
4052739537881----8
6557470319842----7
10610209857723---6
17167680177565---4
27777890035288---1
44945570212853---5
72723460248141---6
117669030460994--2
190392490709135--8
308061521170129--1
498454011879264--9
1----------------1
1----------------1
2----------------2
3----------------3
5----------------5
8----------------8
13---------------4
21---------------3
34---------------7
55---------------1
89---------------8
144--------------9
233--------------8
377--------------8
610--------------7
987--------------6
1597-------------4
2584-------------1
4181-------------5
6765-------------6
10946------------2
17711------------8
28657------------1
46368------------9

75025------------1
121393-----------1
196418-----------2
317811-----------3
514229-----------5
832040-----------8
1346269----------4
2178309----------3
3524578----------7
5702887----------1
9227465----------8
14930352---------9
24157817---------8
39088169---------8
63245986---------7
102334155--------6
165580141--------4
267914296--------1
433494437--------5
701408733--------6
1134903170-------2
1836311903-------8
2971215073-------1
4807526976-------9

7778742049-------1
12586269025------1
20365011074------2
32951280099------3
53316291173------5
86267571272------8
139583862445-----4
225851433717-----3
365435296162-----7
591286729879-----1
956722026041-----8
1548008755920----9
2504730781961----8
4052739537881----8
6557470319842----7
10610209857723---6
17167680177565---4
27777890035288---1
44945570212853---5
72723460248141---6
117669030460994--2
190392490709135--8
308061521170129--1
498454011879264--90----------------0

1----------------1
1----------------1
2----------------2
3----------------3
5----------------5
8----------------8
13---------------4
21---------------3
34---------------7
55---------------1
89---------------8
144--------------9
233--------------8
377--------------8
610--------------7
987--------------6
1597-------------4
2584-------------1
4181-------------5
6765-------------6
10946------------2
17711------------8
28657------------1
46368------------9

75025------------1
121393-----------1
196418-----------2
317811-----------3
514229-----------5
832040-----------8
1346269----------4
2178309----------3
3524578----------7
5702887----------1
9227465----------8
14930352---------9
24157817---------8
39088169---------8
63245986---------7
102334155--------6
165580141--------4
267914296--------1
433494437--------5
701408733--------6
1134903170-------2
1836311903-------8
2971215073-------1
4807526976-------9

7778742049-------1
12586269025------1
20365011074------2
32951280099------3
53316291173------5
86267571272------8
139583862445-----4
225851433717-----3
365435296162-----7
591286729879-----1
956722026041-----8
1548008755920----9
2504730781961----8
4052739537881----8
6557470319842----7
10610209857723---6
17167680177565---4
27777890035288---1
44945570212853---5
72723460248141---6
117669030460994--2
190392490709135--8
308061521170129--1
498454011879264--90----------------0

1----------------1
1----------------1
2----------------2
3----------------3
5----------------5
8----------------8
13---------------4
21---------------3
34---------------7
55---------------1
89---------------8
144--------------9
233--------------8
377--------------8
610--------------7
987--------------6
1597-------------4
2584-------------1
4181-------------5
6765-------------6
10946------------2
17711------------8
28657------------1
46368------------9

75025------------1
121393-----------1
196418-----------2
317811-----------3
514229-----------5
832040-----------8
1346269----------4
2178309----------3
3524578----------7
5702887----------1
9227465----------8
14930352---------9
24157817---------8
39088169---------8
63245986---------7
102334155--------6
165580141--------4
267914296--------1
433494437--------5
701408733--------6
1134903170-------2
1836311903-------8
2971215073-------1
4807526976-------9

7778742049-------1
12586269025------1
20365011074------2
32951280099------3
53316291173------5
86267571272------8
139583862445-----4
225851433717-----3
365435296162-----7
591286729879-----1
956722026041-----8
1548008755920----9
2504730781961----8
4052739537881----8
6557470319842----7
10610209857723---6
17167680177565---4
27777890035288---1
44945570212853---5
72723460248141---6
117669030460994--2
190392490709135--8
308061521170129--1
498454011879264--90----------------0

1----------------1
1----------------1
2----------------2
3----------------3
5----------------5
8----------------8
13---------------4
21---------------3
34---------------7
55---------------1
89---------------8
144--------------9
233--------------8
377--------------8
610--------------7
987--------------6
1597-------------4
2584-------------1
4181-------------5
6765-------------6
10946------------2
17711------------8
28657------------1
46368------------9

75025------------1
121393-----------1
196418-----------2
317811-----------3
514229-----------5
832040-----------8
1346269----------4
2178309----------3
3524578----------7
5702887----------1
9227465----------8
14930352---------9
24157817---------8
39088169---------8
63245986---------7
102334155--------6
165580141--------4
267914296--------1
433494437--------5
701408733--------6
1134903170-------2
1836311903-------8
2971215073-------1
4807526976-------9

7778742049-------1
12586269025------1
20365011074------2
32951280099------3
53316291173------5
86267571272------8
139583862445-----4
225851433717-----3
365435296162-----7
591286729879-----1
956722026041-----8
1548008755920----9
2504730781961----8
4052739537881----8
6557470319842----7
10610209857723---6
17167680177565---4
27777890035288---1
44945570212853---5
72723460248141---6
117669030460994--2
190392490709135--8
308061521170129--1
498454011879264--90----------------0

1----------------1
1----------------1
2----------------2
3----------------3
5----------------5
8----------------8
13---------------4
21---------------3
34---------------7
55---------------1
89---------------8
144--------------9
233--------------8
377--------------8
610--------------7
987--------------6
1597-------------4
2584-------------1
4181-------------5
6765-------------6
10946------------2
17711------------8
28657------------1
46368------------9

75025------------1
121393-----------1
196418-----------2
317811-----------3
514229-----------5
832040-----------8
1346269----------4
2178309----------3
3524578----------7
5702887----------1
9227465----------8
14930352---------9
24157817---------8
39088169---------8
63245986---------7
102334155--------6
165580141--------4
267914296--------1
433494437--------5
701408733--------6
1134903170-------2
1836311903-------8
2971215073-------1
4807526976-------9

7778742049-------1
12586269025------1
20365011074------2
32951280099------3
53316291173------5
86267571272------8
139583862445-----4
225851433717-----3
365435296162-----7
591286729879-----1
956722026041-----8
1548008755920----9
2504730781961----8
4052739537881----8
6557470319842----7
10610209857723---6
17167680177565---4
27777890035288---1
44945570212853---5
72723460248141---6
117669030460994--2
190392490709135--8
308061521170129--1
498454011879264--90----------------0

1----------------1
1----------------1
2----------------2
3----------------3
5----------------5
8----------------8
13---------------4
21---------------3
34---------------7
55---------------1
89---------------8
144--------------9
233--------------8
377--------------8
610--------------7
987--------------6
1597-------------4
2584-------------1
4181-------------5
6765-------------6
10946------------2
17711------------8
28657------------1
46368------------9

75025------------1
121393-----------1
196418-----------2
317811-----------3
514229-----------5
832040-----------8
1346269----------4
2178309----------3
3524578----------7
5702887----------1
9227465----------8
14930352---------9
24157817---------8
39088169---------8
63245986---------7
102334155--------6
165580141--------4
267914296--------1
433494437--------5
701408733--------6
1134903170-------2
1836311903-------8
2971215073-------1
4807526976-------9

7778742049-------1
12586269025------1
20365011074------2
32951280099------3
53316291173------5
86267571272------8
139583862445-----4
225851433717-----3
365435296162-----7
591286729879-----1
956722026041-----8
1548008755920----9
2504730781961----8
4052739537881----8
6557470319842----7
10610209857723---6
17167680177565---4
27777890035288---1
44945570212853---5
72723460248141---6
117669030460994--2
190392490709135--8
308061521170129--1
498454011879264--90----------------0

1----------------1
1----------------1
2----------------2
3----------------3
5----------------5
8----------------8
13---------------4
21---------------3
34---------------7
55---------------1
89---------------8
144--------------9
233--------------8
377--------------8
610--------------7
987--------------6
1597-------------4
2584-------------1
4181-------------5
6765-------------6
10946------------2
17711------------8
28657------------1
46368------------9

75025------------1
121393-----------1
196418-----------2
317811-----------3
514229-----------5
832040-----------8
1346269----------4
2178309----------3
3524578----------7
5702887----------1
9227465----------8
14930352---------9
24157817---------8
39088169---------8
63245986---------7
102334155--------6
165580141--------4
267914296--------1
433494437--------5
701408733--------6
1134903170-------2
1836311903-------8
2971215073-------1
4807526976-------9

7778742049-------1
12586269025------1
20365011074------2
32951280099------3
53316291173------5
86267571272------8
139583862445-----4
225851433717-----3
365435296162-----7
591286729879-----1
956722026041-----8
1548008755920----9
2504730781961----8
4052739537881----8
6557470319842----7
10610209857723---6
17167680177565---4
27777890035288---1
44945570212853---5
72723460248141---6
117669030460994--2
190392490709135--8
308061521170129--1
498454011879264--9
Anonymous Coward
User ID: 25423559
Canada
12/23/2012 09:17 AM
Report Abusive Post
Report Copyright Violation
Re: THERE ARE INFINITE NUMBERS BETWEEN INFINITE NUMBERS BETWEEN INFINITE NUMBERS
you can only get so small.... that being the "real" building blocks of matter
Anonymous Coward
User ID: 25953791
United States
12/23/2012 09:20 AM
Report Abusive Post
Report Copyright Violation
Re: THERE ARE INFINITE NUMBERS BETWEEN INFINITE NUMBERS BETWEEN INFINITE NUMBERS
Not really, but you can redefine the intervals between two numbers to infinite.
Anonymous Coward
User ID: 30695339
United Kingdom
12/23/2012 10:19 AM
Report Abusive Post
Report Copyright Violation
Re: THERE ARE INFINITE NUMBERS BETWEEN INFINITE NUMBERS BETWEEN INFINITE NUMBERS
lolatulolatulolatulolatuahahah
<INFINIINFINIINFINIINFINITUIAMUIASZINFINIINFINIINFINIINFINITU​IAMUIASZINFINIINFINIINFINIINFINITUIAMUIASZ>
Anonymous Coward
User ID: 30695339
United Kingdom
12/23/2012 10:22 AM
Report Abusive Post
Report Copyright Violation
Re: THERE ARE INFINITE NUMBERS BETWEEN INFINITE NUMBERS BETWEEN INFINITE NUMBERS
yoda
<SEIZESEIZESEIZESEIZESEIZESEIZESEIZESEIZESEIZESEIZESEIZESEIZE​SEIZESEIZESEIZE> AND BEYOIND THAT AND TRANSCENDING THAT>>>>>>>>>>>>>>>>>>>>>>>>>>>>>>>>>>>>>>>>>>>>>>>>>>>
Anonymous Coward
User ID: 30695339
United Kingdom
12/23/2012 10:25 AM
Report Abusive Post
Report Copyright Violation
Re: THERE ARE INFINITE NUMBERS BETWEEN INFINITE NUMBERS BETWEEN INFINITE NUMBERS
ahahahlolatulolatulolatuahah
(IIIMMMPPPOOOSSSIIIBBBIIILLLIIITTTIIIEEESSSIIIMMMPPPOOOSSSIII​BBBIIILLLIIITTTIIIEEESSS)
Anonymous Coward
User ID: 28276444
United States
12/23/2012 10:25 AM
Report Abusive Post
Report Copyright Violation
Re: THERE ARE INFINITE NUMBERS BETWEEN INFINITE NUMBERS BETWEEN INFINITE NUMBERS
No such thing as truly infinite.

News